ISO-10303-21;
HEADER;
FILE_DESCRIPTION (( 'STEP AP203' ),
    '1' );
FILE_NAME ('End Cap SDR17_001 115 0140 0280.step',
    '2019-12-16T11:43:32',
    ( '' ),
    ( '' ),
    'SwSTEP 2.0',
    'SolidWorks 2019',
    '' );
FILE_SCHEMA (( 'CONFIG_CONTROL_DESIGN' ));
ENDSEC;

DATA;
#1 = DIRECTION ( 'NONE',  ( 0.0000000000000000000, 0.0000000000000000000, -1.000000000000000000 ) ) ;
#2 = DIRECTION ( 'NONE',  ( -0.0000000000000000000, -1.000000000000000000, -0.0000000000000000000 ) ) ;
#3 = CARTESIAN_POINT ( 'NONE',  ( 0.0000000000000000000, 0.0000000000000000000, 0.0000000000000000000 ) ) ;
#4 = AXIS2_PLACEMENT_3D ( 'NONE', #289, #80, #215 ) ;
#5 =( GEOMETRIC_REPRESENTATION_CONTEXT ( 3 ) GLOBAL_UNCERTAINTY_ASSIGNED_CONTEXT ( ( #183 ) ) GLOBAL_UNIT_ASSIGNED_CONTEXT ( ( #303, #288, #271 ) ) REPRESENTATION_CONTEXT ( 'NONE', 'WORKASPACE' ) );
#6 = DIRECTION ( 'NONE',  ( 0.0000000000000000000, 0.0000000000000000000, -1.000000000000000000 ) ) ;
#7 = DIRECTION ( 'NONE',  ( -0.0000000000000000000, -1.000000000000000000, -0.0000000000000000000 ) ) ;
#8 = CC_DESIGN_PERSON_AND_ORGANIZATION_ASSIGNMENT ( #189, #259, ( #217 ) ) ;
#9 = CARTESIAN_POINT ( 'NONE',  ( 0.0000000000000000000, 0.0000000000000000000, 0.0000000000000000000 ) ) ;
#10 = DIRECTION ( 'NONE',  ( 0.0000000000000000000, -1.000000000000000000, -0.0000000000000000000 ) ) ;
#11 = VECTOR ( 'NONE', #226, 1000.000000000000000 ) ;
#12 = VECTOR ( 'NONE', #298, 1000.000000000000000 ) ;
#13 = CYLINDRICAL_SURFACE ( 'NONE', #195, 123.4000000000000057 ) ;
#14 = FACE_OUTER_BOUND ( 'NONE', #99, .T. ) ;
#15 = DIRECTION ( 'NONE',  ( 0.0000000000000000000, 0.0000000000000000000, -1.000000000000000000 ) ) ;
#16 = ADVANCED_FACE ( 'NONE', ( #44 ), #40, .F. ) ;
#17 = CARTESIAN_POINT ( 'NONE',  ( 0.0000000000000000000, 0.0000000000000000000, -123.4000000000000057 ) ) ;
#18 = CARTESIAN_POINT ( 'NONE',  ( 5.616683085076347363E-16, -391.2523029826333527, 4.586369791671280893 ) ) ;
#19 = CC_DESIGN_APPROVAL ( #130, ( #263 ) ) ;
#20 = CARTESIAN_POINT ( 'NONE',  ( 0.0000000000000000000, 0.0000000000000000000, 0.0000000000000000000 ) ) ;
#21 = DIRECTION ( 'NONE',  ( 0.0000000000000000000, 0.0000000000000000000, -1.000000000000000000 ) ) ;
#22 = APPLICATION_PROTOCOL_DEFINITION ( 'international standard', 'config_control_design', 1994, #231 ) ;
#23 = TOROIDAL_SURFACE ( 'NONE', #147, 4.586369791671280893, 543.4005737406504295 ) ;
#24 = PERSON_AND_ORGANIZATION_ROLE ( 'design_owner' ) ;
#25 = DATE_AND_TIME ( #258, #300 ) ;
#26 = DIRECTION ( 'NONE',  ( -0.0000000000000000000, -1.000000000000000000, -0.0000000000000000000 ) ) ;
#27 = EDGE_CURVE ( 'NONE', #70, #48, #33, .T. ) ;
#28 = SECURITY_CLASSIFICATION_LEVEL ( 'unclassified' ) ;
#29 = CARTESIAN_POINT ( 'NONE',  ( 0.0000000000000000000, 0.0000000000000000000, -123.4000000000000057 ) ) ;
#30 = CYLINDRICAL_SURFACE ( 'NONE', #166, 140.0000000000000000 ) ;
#31 = ADVANCED_BREP_SHAPE_REPRESENTATION ( 'End Cap SDR17_001 115 0140 0280', ( #280, #4 ), #5 ) ;
#32 = APPROVAL_DATE_TIME ( #261, #130 ) ;
#33 = LINE ( 'NONE', #29, #209 ) ;
#34 = DIRECTION ( 'NONE',  ( 0.0000000000000000000, 0.0000000000000000000, -1.000000000000000000 ) ) ;
#35 = DIRECTION ( 'NONE',  ( -0.0000000000000000000, -1.000000000000000000, -0.0000000000000000000 ) ) ;
#36 = AXIS2_PLACEMENT_3D ( 'NONE', #213, #255, #21 ) ;
#37 = APPROVAL_PERSON_ORGANIZATION ( #246, #199, #124 ) ;
#38 = CARTESIAN_POINT ( 'NONE',  ( 0.0000000000000000000, 0.0000000000000000000, 0.0000000000000000000 ) ) ;
#39 = FACE_BOUND ( 'NONE', #73, .T. ) ;
#40 = CYLINDRICAL_SURFACE ( 'NONE', #207, 123.4000000000000057 ) ;
#41 = DIRECTION ( 'NONE',  ( -0.0000000000000000000, -1.000000000000000000, -0.0000000000000000000 ) ) ;
#42 = CIRCLE ( 'NONE', #36, 140.0000000000000000 ) ;
#43 = AXIS2_PLACEMENT_3D ( 'NONE', #270, #51, #182 ) ;
#44 = FACE_OUTER_BOUND ( 'NONE', #97, .T. ) ;
#45 = DIRECTION ( 'NONE',  ( -0.0000000000000000000, -1.000000000000000000, -0.0000000000000000000 ) ) ;
#46 = APPROVAL ( #304, 'BELÝRTÝLMEMÝÞ' ) ;
#47 = CARTESIAN_POINT ( 'NONE',  ( 0.0000000000000000000, 0.0000000000000000000, 0.0000000000000000000 ) ) ;
#48 = VERTEX_POINT ( 'NONE', #17 ) ;
#49 = CARTESIAN_POINT ( 'NONE',  ( 0.0000000000000000000, 152.1289156418256141, 0.0000000000000000000 ) ) ;
#50 = DIRECTION ( 'NONE',  ( -0.0000000000000000000, -1.000000000000000000, -0.0000000000000000000 ) ) ;
#51 = DIRECTION ( 'NONE',  ( -0.0000000000000000000, -1.000000000000000000, -0.0000000000000000000 ) ) ;
#52 = FACE_OUTER_BOUND ( 'NONE', #200, .T. ) ;
#53 = DIRECTION ( 'NONE',  ( 0.0000000000000000000, 0.0000000000000000000, -1.000000000000000000 ) ) ;
#54 = DIRECTION ( 'NONE',  ( -0.0000000000000000000, -1.000000000000000000, -0.0000000000000000000 ) ) ;
#55 = TOROIDAL_SURFACE ( 'NONE', #43, 4.586369791671280893, 543.4005737406504295 ) ;
#56 = PERSON_AND_ORGANIZATION_ROLE ( 'creator' ) ;
#57 = AXIS2_PLACEMENT_3D ( 'NONE', #302, #114, #227 ) ;
#58 = ADVANCED_FACE ( 'NONE', ( #14 ), #13, .F. ) ;
#59 = PERSON_AND_ORGANIZATION_ROLE ( 'creator' ) ;
#60 = EDGE_LOOP ( 'NONE', ( #62, #63, #68 ) ) ;
#61 = COORDINATED_UNIVERSAL_TIME_OFFSET ( 3, 0, .AHEAD. ) ;
#62 = ORIENTED_EDGE ( 'NONE', *, *, #83, .F. ) ;
#63 = ORIENTED_EDGE ( 'NONE', *, *, #249, .T. ) ;
#64 = AXIS2_PLACEMENT_3D ( 'NONE', #20, #150, #243 ) ;
#65 = CIRCLE ( 'NONE', #57, 123.4000000000000199 ) ;
#66 = EDGE_LOOP ( 'NONE', ( #161, #162, #163, #165 ) ) ;
#67 = EDGE_LOOP ( 'NONE', ( #143, #145 ) ) ;
#68 = ORIENTED_EDGE ( 'NONE', *, *, #98, .T. ) ;
#69 = EDGE_CURVE ( 'NONE', #190, #201, #196, .T. ) ;
#70 = VERTEX_POINT ( 'NONE', #235 ) ;
#71 = DIRECTION ( 'NONE',  ( -1.000000000000000000, 0.0000000000000000000, 0.0000000000000000000 ) ) ;
#72 = EDGE_LOOP ( 'NONE', ( #175, #188, #193 ) ) ;
#73 = EDGE_LOOP ( 'NONE', ( #155, #157 ) ) ;
#74 = CARTESIAN_POINT ( 'NONE',  ( 1.511214150147833874E-14, 0.0000000000000000000, 123.4000000000000057 ) ) ;
#75 = AXIS2_PLACEMENT_3D ( 'NONE', #268, #50, #180 ) ;
#76 = TOROIDAL_SURFACE ( 'NONE', #75, 4.586369791671280893, 560.0000000000000000 ) ;
#77 = VERTEX_POINT ( 'NONE', #123 ) ;
#78 = CARTESIAN_POINT ( 'NONE',  ( 0.0000000000000000000, 0.0000000000000000000, 0.0000000000000000000 ) ) ;
#79 = CC_DESIGN_PERSON_AND_ORGANIZATION_ASSIGNMENT ( #276, #59, ( #217 ) ) ;
#80 = DIRECTION ( 'NONE',  ( 0.0000000000000000000, 0.0000000000000000000, 1.000000000000000000 ) ) ;
#81 = PRODUCT_DEFINITION_SHAPE ( 'NONE', 'NONE',  #294 ) ;
#82 = DATE_AND_TIME ( #290, #275 ) ;
#83 = EDGE_CURVE ( 'NONE', #203, #70, #186, .T. ) ;
#84 = DATE_AND_TIME ( #291, #241 ) ;
#85 = ORIENTED_EDGE ( 'NONE', *, *, #134, .F. ) ;
#86 = CC_DESIGN_APPROVAL ( #199, ( #217 ) ) ;
#87 = PERSON_AND_ORGANIZATION ( #103, #248 ) ;
#88 = ORIENTED_EDGE ( 'NONE', *, *, #164, .T. ) ;
#89 = ORIENTED_EDGE ( 'NONE', *, *, #245, .F. ) ;
#90 = CARTESIAN_POINT ( 'NONE',  ( 0.0000000000000000000, 139.0000000000001137, 0.0000000000000000000 ) ) ;
#91 = ORIENTED_EDGE ( 'NONE', *, *, #245, .T. ) ;
#92 = AXIS2_PLACEMENT_3D ( 'NONE', #18, #146, #240 ) ;
#93 = CIRCLE ( 'NONE', #92, 543.4005737406504295 ) ;
#94 = AXIS2_PLACEMENT_3D ( 'NONE', #49, #178, #253 ) ;
#95 = ORIENTED_EDGE ( 'NONE', *, *, #211, .T. ) ;
#96 = DIRECTION ( 'NONE',  ( 0.0000000000000000000, 0.0000000000000000000, 1.000000000000000000 ) ) ;
#97 = EDGE_LOOP ( 'NONE', ( #112, #125, #128, #129 ) ) ;
#98 = EDGE_CURVE ( 'NONE', #132, #70, #184, .T. ) ;
#99 = EDGE_LOOP ( 'NONE', ( #131, #135, #136, #141 ) ) ;
#100 = DIRECTION ( 'NONE',  ( 0.0000000000000000000, 0.0000000000000000000, -1.000000000000000000 ) ) ;
#101 = CIRCLE ( 'NONE', #94, 140.0000000000000000 ) ;
#102 = AXIS2_PLACEMENT_3D ( 'NONE', #78, #210, #267 ) ;
#103 = PERSON ( 'BELÝRTÝLMEMÝÞ', 'BELÝRTÝLMEMÝÞ', 'BELÝRTÝLMEMÝÞ', ('BELÝRTÝLMEMÝÞ'), ('BELÝRTÝLMEMÝÞ'), ('BELÝRTÝLMEMÝÞ') ) ;
#104 = ORIENTED_EDGE ( 'NONE', *, *, #234, .F. ) ;
#105 = DIRECTION ( 'NONE',  ( -1.224646799147353207E-16, 0.0000000000000000000, -1.000000000000000000 ) ) ;
#106 = EDGE_LOOP ( 'NONE', ( #85, #88, #89 ) ) ;
#107 = DIRECTION ( 'NONE',  ( 0.0000000000000000000, 0.0000000000000000000, -1.000000000000000000 ) ) ;
#108 = ORIENTED_EDGE ( 'NONE', *, *, #224, .F. ) ;
#109 = CARTESIAN_POINT ( 'NONE',  ( 0.0000000000000000000, 0.0000000000000000000, 0.0000000000000000000 ) ) ;
#110 = CIRCLE ( 'NONE', #102, 140.0000000000000000 ) ;
#111 = APPROVAL_PERSON_ORGANIZATION ( #244, #46, #122 ) ;
#112 = ORIENTED_EDGE ( 'NONE', *, *, #98, .F. ) ;
#113 = CARTESIAN_POINT ( 'NONE',  ( 1.511214150147833874E-14, 0.0000000000000000000, 123.4000000000000057 ) ) ;
#114 = DIRECTION ( 'NONE',  ( -0.0000000000000000000, -1.000000000000000000, -0.0000000000000000000 ) ) ;
#115 = ADVANCED_FACE ( 'NONE', ( #52 ), #30, .T. ) ;
#116 = DIRECTION ( 'NONE',  ( -1.000000000000000000, 0.0000000000000000000, 0.0000000000000000000 ) ) ;
#117 = AXIS2_PLACEMENT_3D ( 'NONE', #109, #225, #284 ) ;
#118 = CIRCLE ( 'NONE', #117, 123.4000000000000057 ) ;
#119 = AXIS2_PLACEMENT_3D ( 'NONE', #176, #252, #15 ) ;
#120 = CARTESIAN_POINT ( 'NONE',  ( 0.0000000000000000000, -391.2523029826333527, -4.586369791671280893 ) ) ;
#121 = CC_DESIGN_PERSON_AND_ORGANIZATION_ASSIGNMENT ( #274, #56, ( #294 ) ) ;
#122 = APPROVAL_ROLE ( '' ) ;
#123 = CARTESIAN_POINT ( 'NONE',  ( 1.714505518806294599E-14, 152.1289156418256141, 140.0000000000000000 ) ) ;
#124 = APPROVAL_ROLE ( '' ) ;
#125 = ORIENTED_EDGE ( 'NONE', *, *, #262, .T. ) ;
#126 = CIRCLE ( 'NONE', #119, 123.4000000000000057 ) ;
#127 = CALENDAR_DATE ( 2019, 16, 12 ) ;
#128 = ORIENTED_EDGE ( 'NONE', *, *, #230, .T. ) ;
#129 = ORIENTED_EDGE ( 'NONE', *, *, #27, .F. ) ;
#130 = APPROVAL ( #220, 'BELÝRTÝLMEMÝÞ' ) ;
#131 = ORIENTED_EDGE ( 'NONE', *, *, #262, .F. ) ;
#132 = VERTEX_POINT ( 'NONE', #221 ) ;
#133 = VECTOR ( 'NONE', #45, 1000.000000000000000 ) ;
#134 = EDGE_CURVE ( 'NONE', #177, #197, #173, .T. ) ;
#135 = ORIENTED_EDGE ( 'NONE', *, *, #286, .F. ) ;
#136 = ORIENTED_EDGE ( 'NONE', *, *, #27, .T. ) ;
#137 = DIRECTION ( 'NONE',  ( 0.0000000000000000000, 0.0000000000000000000, -1.000000000000000000 ) ) ;
#138 = AXIS2_PLACEMENT_3D ( 'NONE', #237, #297, #107 ) ;
#139 = TOROIDAL_SURFACE ( 'NONE', #138, 4.586369791671280893, 560.0000000000000000 ) ;
#140 = DESIGN_CONTEXT ( 'detailed design', #242, 'design' ) ;
#141 = ORIENTED_EDGE ( 'NONE', *, *, #219, .T. ) ;
#142 = CARTESIAN_POINT ( 'NONE',  ( 0.0000000000000000000, 152.1289156418256141, -140.0000000000000000 ) ) ;
#143 = ORIENTED_EDGE ( 'NONE', *, *, #234, .T. ) ;
#144 = LINE ( 'NONE', #239, #12 ) ;
#145 = ORIENTED_EDGE ( 'NONE', *, *, #69, .T. ) ;
#146 = DIRECTION ( 'NONE',  ( 1.000000000000000000, 0.0000000000000000000, -1.224646799147353207E-16 ) ) ;
#147 = AXIS2_PLACEMENT_3D ( 'NONE', #265, #41, #172 ) ;
#148 = LOCAL_TIME ( 14, 43, 32.00000000000000000, #306 ) ;
#149 = ADVANCED_FACE ( 'NONE', ( #264, #39 ), #170, .T. ) ;
#150 = DIRECTION ( 'NONE',  ( -0.0000000000000000000, -1.000000000000000000, -0.0000000000000000000 ) ) ;
#151 = AXIS2_PLACEMENT_3D ( 'NONE', #236, #296, #105 ) ;
#152 = CIRCLE ( 'NONE', #151, 560.0000000000000000 ) ;
#153 = APPLICATION_PROTOCOL_DEFINITION ( 'international standard', 'config_control_design', 1994, #242 ) ;
#154 = DATE_TIME_ROLE ( 'creation_date' ) ;
#155 = ORIENTED_EDGE ( 'NONE', *, *, #219, .F. ) ;
#156 = PERSON_AND_ORGANIZATION ( #103, #248 ) ;
#157 = ORIENTED_EDGE ( 'NONE', *, *, #230, .F. ) ;
#158 = AXIS2_PLACEMENT_3D ( 'NONE', #250, #10, #137 ) ;
#159 = AXIS2_PLACEMENT_3D ( 'NONE', #281, #71, #204 ) ;
#160 = SHAPE_DEFINITION_REPRESENTATION ( #81, #31 ) ;
#161 = ORIENTED_EDGE ( 'NONE', *, *, #211, .F. ) ;
#162 = ORIENTED_EDGE ( 'NONE', *, *, #307, .T. ) ;
#163 = ORIENTED_EDGE ( 'NONE', *, *, #224, .T. ) ;
#164 = EDGE_CURVE ( 'NONE', #177, #77, #152, .T. ) ;
#165 = ORIENTED_EDGE ( 'NONE', *, *, #69, .F. ) ;
#166 = AXIS2_PLACEMENT_3D ( 'NONE', #47, #295, #100 ) ;
#167 = CC_DESIGN_APPROVAL ( #46, ( #294 ) ) ;
#168 = ORIENTED_EDGE ( 'NONE', *, *, #164, .F. ) ;
#169 = ORIENTED_EDGE ( 'NONE', *, *, #134, .T. ) ;
#170 = PLANE ( 'NONE',  #158 ) ;
#171 = ORIENTED_EDGE ( 'NONE', *, *, #307, .F. ) ;
#172 = DIRECTION ( 'NONE',  ( 0.0000000000000000000, 0.0000000000000000000, -1.000000000000000000 ) ) ;
#173 = CIRCLE ( 'NONE', #159, 560.0000000000000000 ) ;
#174 = CC_DESIGN_DATE_AND_TIME_ASSIGNMENT ( #233, #293, ( #263 ) ) ;
#175 = ORIENTED_EDGE ( 'NONE', *, *, #249, .F. ) ;
#176 = CARTESIAN_POINT ( 'NONE',  ( 0.0000000000000000000, 0.0000000000000000000, 0.0000000000000000000 ) ) ;
#177 = VERTEX_POINT ( 'NONE', #222 ) ;
#178 = DIRECTION ( 'NONE',  ( -0.0000000000000000000, -1.000000000000000000, -0.0000000000000000000 ) ) ;
#179 = ADVANCED_FACE ( 'NONE', ( #282 ), #23, .F. ) ;
#180 = DIRECTION ( 'NONE',  ( 0.0000000000000000000, 0.0000000000000000000, -1.000000000000000000 ) ) ;
#181 = AXIS2_PLACEMENT_3D ( 'NONE', #90, #54, #53 ) ;
#182 = DIRECTION ( 'NONE',  ( 0.0000000000000000000, 0.0000000000000000000, -1.000000000000000000 ) ) ;
#183 = UNCERTAINTY_MEASURE_WITH_UNIT (LENGTH_MEASURE( 1.000000000000000082E-05 ), #303, 'distance_accuracy_value', 'NONE');
#184 = CIRCLE ( 'NONE', #181, 123.4000000000000199 ) ;
#185 = AXIS2_PLACEMENT_3D ( 'NONE', #120, #116, #96 ) ;
#186 = CIRCLE ( 'NONE', #185, 543.4005737406504295 ) ;
#187 = COORDINATED_UNIVERSAL_TIME_OFFSET ( 3, 0, .AHEAD. ) ;
#188 = ORIENTED_EDGE ( 'NONE', *, *, #83, .T. ) ;
#189 = PERSON_AND_ORGANIZATION ( #103, #248 ) ;
#190 = VERTEX_POINT ( 'NONE', #206 ) ;
#191 = ADVANCED_FACE ( 'NONE', ( #251 ), #139, .T. ) ;
#192 = CALENDAR_DATE ( 2019, 16, 12 ) ;
#193 = ORIENTED_EDGE ( 'NONE', *, *, #286, .T. ) ;
#194 = AXIS2_PLACEMENT_3D ( 'NONE', #3, #2, #1 ) ;
#195 = AXIS2_PLACEMENT_3D ( 'NONE', #9, #7, #6 ) ;
#196 = CIRCLE ( 'NONE', #194, 140.0000000000000000 ) ;
#197 = VERTEX_POINT ( 'NONE', #142 ) ;
#198 = EDGE_LOOP ( 'NONE', ( #168, #169, #171 ) ) ;
#199 = APPROVAL ( #305, 'BELÝRTÝLMEMÝÞ' ) ;
#200 = EDGE_LOOP ( 'NONE', ( #91, #95, #104, #108 ) ) ;
#201 = VERTEX_POINT ( 'NONE', #223 ) ;
#202 = LOCAL_TIME ( 14, 43, 32.00000000000000000, #61 ) ;
#203 = VERTEX_POINT ( 'NONE', #283 ) ;
#204 = DIRECTION ( 'NONE',  ( 0.0000000000000000000, 0.0000000000000000000, 1.000000000000000000 ) ) ;
#205 = VERTEX_POINT ( 'NONE', #74 ) ;
#206 = CARTESIAN_POINT ( 'NONE',  ( 1.714505518806294599E-14, 0.0000000000000000000, 140.0000000000000000 ) ) ;
#207 = AXIS2_PLACEMENT_3D ( 'NONE', #38, #35, #34 ) ;
#208 = LINE ( 'NONE', #266, #133 ) ;
#209 = VECTOR ( 'NONE', #26, 1000.000000000000000 ) ;
#210 = DIRECTION ( 'NONE',  ( -0.0000000000000000000, -1.000000000000000000, -0.0000000000000000000 ) ) ;
#211 = EDGE_CURVE ( 'NONE', #77, #190, #208, .T. ) ;
#212 = FACE_OUTER_BOUND ( 'NONE', #66, .T. ) ;
#213 = CARTESIAN_POINT ( 'NONE',  ( 0.0000000000000000000, 152.1289156418256141, 0.0000000000000000000 ) ) ;
#214 = CLOSED_SHELL ( 'NONE', ( #179, #269, #115, #16, #58, #149, #279, #191, #299 ) ) ;
#215 = DIRECTION ( 'NONE',  ( 1.000000000000000000, 0.0000000000000000000, 0.0000000000000000000 ) ) ;
#216 = APPROVAL_DATE_TIME ( #82, #46 ) ;
#217 = PRODUCT_DEFINITION_FORMATION_WITH_SPECIFIED_SOURCE ( 'HERHANGÝ', '', #272, .NOT_KNOWN. ) ;
#218 = APPROVAL_DATE_TIME ( #84, #199 ) ;
#219 = EDGE_CURVE ( 'NONE', #48, #205, #126, .T. ) ;
#220 = APPROVAL_STATUS ( 'not_yet_approved' ) ;
#221 = CARTESIAN_POINT ( 'NONE',  ( 1.511214150147834189E-14, 139.0000000000001137, 123.4000000000000341 ) ) ;
#222 = CARTESIAN_POINT ( 'NONE',  ( -6.158268339717665185E-14, 168.7289156418255800, 0.0000000000000000000 ) ) ;
#223 = CARTESIAN_POINT ( 'NONE',  ( 0.0000000000000000000, 0.0000000000000000000, -140.0000000000000000 ) ) ;
#224 = EDGE_CURVE ( 'NONE', #197, #201, #144, .T. ) ;
#225 = DIRECTION ( 'NONE',  ( -0.0000000000000000000, -1.000000000000000000, -0.0000000000000000000 ) ) ;
#226 = DIRECTION ( 'NONE',  ( -0.0000000000000000000, -1.000000000000000000, -0.0000000000000000000 ) ) ;
#227 = DIRECTION ( 'NONE',  ( 0.0000000000000000000, 0.0000000000000000000, -1.000000000000000000 ) ) ;
#228 = COORDINATED_UNIVERSAL_TIME_OFFSET ( 3, 0, .AHEAD. ) ;
#229 = COORDINATED_UNIVERSAL_TIME_OFFSET ( 3, 0, .AHEAD. ) ;
#230 = EDGE_CURVE ( 'NONE', #205, #48, #118, .T. ) ;
#231 = APPLICATION_CONTEXT ( 'configuration controlled 3d designs of mechanical parts and assemblies' ) ;
#232 = CC_DESIGN_SECURITY_CLASSIFICATION ( #263, ( #217 ) ) ;
#233 = DATE_AND_TIME ( #127, #148 ) ;
#234 = EDGE_CURVE ( 'NONE', #201, #190, #110, .T. ) ;
#235 = CARTESIAN_POINT ( 'NONE',  ( 0.0000000000000000000, 139.0000000000001137, -123.4000000000000199 ) ) ;
#236 = CARTESIAN_POINT ( 'NONE',  ( 5.616683085076347363E-16, -391.2523029826333527, 4.586369791671280893 ) ) ;
#237 = CARTESIAN_POINT ( 'NONE',  ( 0.0000000000000000000, -391.2523029826333527, 0.0000000000000000000 ) ) ;
#238 = CC_DESIGN_DATE_AND_TIME_ASSIGNMENT ( #25, #154, ( #294 ) ) ;
#239 = CARTESIAN_POINT ( 'NONE',  ( 0.0000000000000000000, 0.0000000000000000000, -140.0000000000000000 ) ) ;
#240 = DIRECTION ( 'NONE',  ( -1.224646799147352961E-16, 0.0000000000000000000, -1.000000000000000000 ) ) ;
#241 = LOCAL_TIME ( 14, 43, 32.00000000000000000, #229 ) ;
#242 = APPLICATION_CONTEXT ( 'configuration controlled 3d designs of mechanical parts and assemblies' ) ;
#243 = DIRECTION ( 'NONE',  ( 0.0000000000000000000, 0.0000000000000000000, -1.000000000000000000 ) ) ;
#244 = PERSON_AND_ORGANIZATION ( #103, #248 ) ;
#245 = EDGE_CURVE ( 'NONE', #197, #77, #101, .T. ) ;
#246 = PERSON_AND_ORGANIZATION ( #103, #248 ) ;
#247 = PERSON_AND_ORGANIZATION_ROLE ( 'classification_officer' ) ;
#248 = ORGANIZATION ( 'BELÝRTÝLMEMÝÞ', 'BELÝRTÝLMEMÝÞ', '' ) ;
#249 = EDGE_CURVE ( 'NONE', #203, #132, #93, .T. ) ;
#250 = CARTESIAN_POINT ( 'NONE',  ( 123.4000000000000057, 0.0000000000000000000, 0.0000000000000000000 ) ) ;
#251 = FACE_OUTER_BOUND ( 'NONE', #198, .T. ) ;
#252 = DIRECTION ( 'NONE',  ( -0.0000000000000000000, -1.000000000000000000, -0.0000000000000000000 ) ) ;
#253 = DIRECTION ( 'NONE',  ( 0.0000000000000000000, 0.0000000000000000000, -1.000000000000000000 ) ) ;
#254 = CYLINDRICAL_SURFACE ( 'NONE', #64, 140.0000000000000000 ) ;
#255 = DIRECTION ( 'NONE',  ( -0.0000000000000000000, -1.000000000000000000, -0.0000000000000000000 ) ) ;
#256 = PERSON_AND_ORGANIZATION ( #103, #248 ) ;
#257 = CC_DESIGN_PERSON_AND_ORGANIZATION_ASSIGNMENT ( #256, #24, ( #272 ) ) ;
#258 = CALENDAR_DATE ( 2019, 16, 12 ) ;
#259 = PERSON_AND_ORGANIZATION_ROLE ( 'design_supplier' ) ;
#260 = PRODUCT_RELATED_PRODUCT_CATEGORY ( 'detail', '', ( #272 ) ) ;
#261 = DATE_AND_TIME ( #192, #202 ) ;
#262 = EDGE_CURVE ( 'NONE', #132, #205, #301, .T. ) ;
#263 = SECURITY_CLASSIFICATION ( '', '', #28 ) ;
#264 = FACE_OUTER_BOUND ( 'NONE', #67, .T. ) ;
#265 = CARTESIAN_POINT ( 'NONE',  ( 0.0000000000000000000, -391.2523029826333527, 0.0000000000000000000 ) ) ;
#266 = CARTESIAN_POINT ( 'NONE',  ( 1.714505518806294599E-14, 0.0000000000000000000, 140.0000000000000000 ) ) ;
#267 = DIRECTION ( 'NONE',  ( 0.0000000000000000000, 0.0000000000000000000, -1.000000000000000000 ) ) ;
#268 = CARTESIAN_POINT ( 'NONE',  ( 0.0000000000000000000, -391.2523029826333527, 0.0000000000000000000 ) ) ;
#269 = ADVANCED_FACE ( 'NONE', ( #285 ), #76, .T. ) ;
#270 = CARTESIAN_POINT ( 'NONE',  ( 0.0000000000000000000, -391.2523029826333527, 0.0000000000000000000 ) ) ;
#271 =( NAMED_UNIT ( * ) SI_UNIT ( $, .STERADIAN. ) SOLID_ANGLE_UNIT ( ) );
#272 = PRODUCT ( 'End Cap SDR17_001 115 0140 0280', 'End Cap SDR17_001 115 0140 0280', '', ( #273 ) ) ;
#273 = MECHANICAL_CONTEXT ( 'NONE', #231, 'mechanical' ) ;
#274 = PERSON_AND_ORGANIZATION ( #103, #248 ) ;
#275 = LOCAL_TIME ( 14, 43, 32.00000000000000000, #228 ) ;
#276 = PERSON_AND_ORGANIZATION ( #103, #248 ) ;
#277 = CC_DESIGN_PERSON_AND_ORGANIZATION_ASSIGNMENT ( #156, #247, ( #263 ) ) ;
#278 = APPROVAL_ROLE ( '' ) ;
#279 = ADVANCED_FACE ( 'NONE', ( #212 ), #254, .T. ) ;
#280 = MANIFOLD_SOLID_BREP ( 'Döndür1', #214 ) ;
#281 = CARTESIAN_POINT ( 'NONE',  ( 0.0000000000000000000, -391.2523029826333527, -4.586369791671280893 ) ) ;
#282 = FACE_OUTER_BOUND ( 'NONE', #60, .T. ) ;
#283 = CARTESIAN_POINT ( 'NONE',  ( -2.820494819939319995E-14, 152.1289156418256141, 0.0000000000000000000 ) ) ;
#284 = DIRECTION ( 'NONE',  ( 0.0000000000000000000, 0.0000000000000000000, -1.000000000000000000 ) ) ;
#285 = FACE_OUTER_BOUND ( 'NONE', #106, .T. ) ;
#286 = EDGE_CURVE ( 'NONE', #70, #132, #65, .T. ) ;
#287 = FACE_OUTER_BOUND ( 'NONE', #72, .T. ) ;
#288 =( NAMED_UNIT ( * ) PLANE_ANGLE_UNIT ( ) SI_UNIT ( $, .RADIAN. ) );
#289 = CARTESIAN_POINT ( 'NONE',  ( 0.0000000000000000000, 0.0000000000000000000, 0.0000000000000000000 ) ) ;
#290 = CALENDAR_DATE ( 2019, 16, 12 ) ;
#291 = CALENDAR_DATE ( 2019, 16, 12 ) ;
#292 = APPROVAL_PERSON_ORGANIZATION ( #87, #130, #278 ) ;
#293 = DATE_TIME_ROLE ( 'classification_date' ) ;
#294 = PRODUCT_DEFINITION ( 'BÝLÝNMEYEN', '', #217, #140 ) ;
#295 = DIRECTION ( 'NONE',  ( -0.0000000000000000000, -1.000000000000000000, -0.0000000000000000000 ) ) ;
#296 = DIRECTION ( 'NONE',  ( 1.000000000000000000, 0.0000000000000000000, -1.224646799147353207E-16 ) ) ;
#297 = DIRECTION ( 'NONE',  ( -0.0000000000000000000, -1.000000000000000000, -0.0000000000000000000 ) ) ;
#298 = DIRECTION ( 'NONE',  ( -0.0000000000000000000, -1.000000000000000000, -0.0000000000000000000 ) ) ;
#299 = ADVANCED_FACE ( 'NONE', ( #287 ), #55, .F. ) ;
#300 = LOCAL_TIME ( 14, 43, 32.00000000000000000, #187 ) ;
#301 = LINE ( 'NONE', #113, #11 ) ;
#302 = CARTESIAN_POINT ( 'NONE',  ( 0.0000000000000000000, 139.0000000000001137, 0.0000000000000000000 ) ) ;
#303 =( LENGTH_UNIT ( ) NAMED_UNIT ( * ) SI_UNIT ( .MILLI., .METRE. ) );
#304 = APPROVAL_STATUS ( 'not_yet_approved' ) ;
#305 = APPROVAL_STATUS ( 'not_yet_approved' ) ;
#306 = COORDINATED_UNIVERSAL_TIME_OFFSET ( 3, 0, .AHEAD. ) ;
#307 = EDGE_CURVE ( 'NONE', #77, #197, #42, .T. ) ;
ENDSEC;
END-ISO-10303-21;
